ISO-10303-21;
HEADER;
FILE_DESCRIPTION (( 'STEP AP214' ),
    '1' );
FILE_NAME ('GCC-411323.STEP',
    '2020-02-15T10:10:33',
    ( 'China' ),
    ( 'Microsoft' ),
    'SwSTEP 2.0',
    'SolidWorks 2018',
    '' );
FILE_SCHEMA (( 'AUTOMOTIVE_DESIGN' ));
ENDSEC;

DATA;
#1 = CARTESIAN_POINT ( 'NONE',  ( 0.0000000000000000000, 0.0000000000000000000, 0.0000000000000000000 ) ) ;
#2 = ORIENTED_EDGE ( 'NONE', *, *, #95, .T. ) ;
#3 = DIRECTION ( 'NONE',  ( 0.0000000000000000000, 0.03489949670249403724, -0.9993908270190959842 ) ) ;
#4 = UNCERTAINTY_MEASURE_WITH_UNIT (LENGTH_MEASURE( 1.000000000000000082E-05 ), #126, 'distance_accuracy_value', 'NONE');
#5 = CARTESIAN_POINT ( 'NONE',  ( 50.00000000000000000, 6.123233995736766085E-15, 4.253961525412961464 ) ) ;
#6 = CIRCLE ( 'NONE', #7, 50.00000000000000000 ) ;
#7 = AXIS2_PLACEMENT_3D ( 'NONE', #42, #77, #97 ) ;
#8 = AXIS2_PLACEMENT_3D ( 'NONE', #33, #113, #135 ) ;
#9 = EDGE_CURVE ( 'NONE', #85, #30, #6, .T. ) ;
#10 = ADVANCED_FACE ( 'NONE', ( #104 ), #19, .T. ) ;
#11 = ORIENTED_EDGE ( 'NONE', *, *, #83, .F. ) ;
#12 = DIRECTION ( 'NONE',  ( -0.0000000000000000000, -0.0000000000000000000, -1.000000000000000000 ) ) ;
#13 = DIRECTION ( 'NONE',  ( 1.000000000000000000, 0.0000000000000000000, -0.0000000000000000000 ) ) ;
#14 = CARTESIAN_POINT ( 'NONE',  ( 50.00000000000002132, -100.0000000000000000, 0.7618845762388835041 ) ) ;
#15 = STYLED_ITEM ( 'NONE', ( #47 ), #78 ) ;
#16 = PRODUCT_RELATED_PRODUCT_CATEGORY ( 'part', '', ( #46 ) ) ;
#17 = FILL_AREA_STYLE ('',( #99 ) ) ;
#18 = LINE ( 'NONE', #56, #24 ) ;
#19 = CYLINDRICAL_SURFACE ( 'NONE', #101, 50.00000000000000000 ) ;
#20 = PLANE ( 'NONE',  #138 ) ;
#21 =( NAMED_UNIT ( * ) PLANE_ANGLE_UNIT ( ) SI_UNIT ( $, .RADIAN. ) );
#22 = SHAPE_DEFINITION_REPRESENTATION ( #27, #110 ) ;
#23 = SURFACE_STYLE_USAGE ( .BOTH. , #45 ) ;
#24 = VECTOR ( 'NONE', #12, 1000.000000000000000 ) ;
#25 = APPLICATION_PROTOCOL_DEFINITION ( 'draft international standard', 'automotive_design', 1998, #61 ) ;
#26 = ORIENTED_EDGE ( 'NONE', *, *, #95, .F. ) ;
#27 = PRODUCT_DEFINITION_SHAPE ( 'NONE', 'NONE',  #114 ) ;
#28 = SURFACE_STYLE_FILL_AREA ( #79 ) ;
#29 = FILL_AREA_STYLE_COLOUR ( '', #43 ) ;
#30 = VERTEX_POINT ( 'NONE', #107 ) ;
#31 = CARTESIAN_POINT ( 'NONE',  ( -50.00000000000000000, 0.0000000000000000000, 6.000000000000000000 ) ) ;
#32 =( GEOMETRIC_REPRESENTATION_CONTEXT ( 3 ) GLOBAL_UNCERTAINTY_ASSIGNED_CONTEXT ( ( #129 ) ) GLOBAL_UNIT_ASSIGNED_CONTEXT ( ( #87, #121, #70 ) ) REPRESENTATION_CONTEXT ( 'NONE', 'WORKASPACE' ) );
#33 = CARTESIAN_POINT ( 'NONE',  ( 0.0000000000000000000, 0.0000000000000000000, 6.000000000000000000 ) ) ;
#34 = CARTESIAN_POINT ( 'NONE',  ( -50.00000000000000000, 0.0000000000000000000, 4.253961525412961464 ) ) ;
#35 = CARTESIAN_POINT ( 'NONE',  ( 49.99999999999997868, 100.0000000000000000, 7.746038474587039424 ) ) ;
#36 =( NAMED_UNIT ( * ) PLANE_ANGLE_UNIT ( ) SI_UNIT ( $, .RADIAN. ) );
#37 = FACE_OUTER_BOUND ( 'NONE', #76, .T. ) ;
#38 = ORIENTED_EDGE ( 'NONE', *, *, #103, .F. ) ;
#39 = EDGE_LOOP ( 'NONE', ( #50, #96 ) ) ;
#40 = CARTESIAN_POINT ( 'NONE',  ( 0.0000000000000000000, 0.0000000000000000000, 0.0000000000000000000 ) ) ;
#41 = PRESENTATION_LAYER_ASSIGNMENT (  '', '', ( #15 ) ) ;
#42 = CARTESIAN_POINT ( 'NONE',  ( 0.0000000000000000000, 0.0000000000000000000, 0.0000000000000000000 ) ) ;
#43 = COLOUR_RGB ( '',0.9411764705882352811, 0.9607843137254902244, 0.9686274509803921573 ) ;
#44 = CARTESIAN_POINT ( 'NONE',  ( 0.0000000000000000000, 0.0000000000000000000, 6.000000000000000000 ) ) ;
#45 = SURFACE_SIDE_STYLE ('',( #28 ) ) ;
#46 = PRODUCT ( 'GCC-411323', 'GCC-411323', '', ( #136 ) ) ;
#47 = PRESENTATION_STYLE_ASSIGNMENT (( #23 ) ) ;
#48 =( NAMED_UNIT ( * ) SI_UNIT ( $, .STERADIAN. ) SOLID_ANGLE_UNIT ( ) );
#49 = PRESENTATION_STYLE_ASSIGNMENT (( #58 ) ) ;
#50 = ORIENTED_EDGE ( 'NONE', *, *, #9, .F. ) ;
#51 = DIRECTION ( 'NONE',  ( -0.0000000000000000000, -0.0000000000000000000, -1.000000000000000000 ) ) ;
#52 =( BOUNDED_CURVE ( )  B_SPLINE_CURVE ( 3, ( #88, #100, #35, #80 ),
 .UNSPECIFIED., .F., .F. ) 
 B_SPLINE_CURVE_WITH_KNOTS ( ( 4, 4 ),
 ( 1.570796326794896558, 4.712388980384689674 ),
 .UNSPECIFIED. ) 
 CURVE ( )  GEOMETRIC_REPRESENTATION_ITEM ( )  RATIONAL_B_SPLINE_CURVE ( ( 1.000000000000000000, 0.3333333333333333703, 0.3333333333333333703, 1.000000000000000000 ) ) 
 REPRESENTATION_ITEM ( '' )  );
#53 =( NAMED_UNIT ( * ) SI_UNIT ( $, .STERADIAN. ) SOLID_ANGLE_UNIT ( ) );
#54 = DIRECTION ( 'NONE',  ( 0.0000000000000000000, 0.0000000000000000000, 1.000000000000000000 ) ) ;
#55 = EDGE_LOOP ( 'NONE', ( #11, #38 ) ) ;
#56 = CARTESIAN_POINT ( 'NONE',  ( 50.00000000000000000, 6.123233995736766085E-15, 6.000000000000000000 ) ) ;
#57 = CARTESIAN_POINT ( 'NONE',  ( -50.00000000000000000, 0.0000000000000000000, 4.253961525412961464 ) ) ;
#58 = SURFACE_STYLE_USAGE ( .BOTH. , #124 ) ;
#59 = FACE_OUTER_BOUND ( 'NONE', #39, .T. ) ;
#60 = APPLICATION_CONTEXT ( 'automotive_design' ) ;
#61 = APPLICATION_CONTEXT ( 'automotive_design' ) ;
#62 = COLOUR_RGB ( '',0.9411764705882352811, 0.9607843137254902244, 0.9686274509803921573 ) ;
#63 = ADVANCED_FACE ( 'NONE', ( #59 ), #20, .F. ) ;
#64 = ORIENTED_EDGE ( 'NONE', *, *, #9, .T. ) ;
#65 = DIRECTION ( 'NONE',  ( -1.000000000000000000, 0.0000000000000000000, 0.0000000000000000000 ) ) ;
#66 = CIRCLE ( 'NONE', #125, 50.00000000000000000 ) ;
#67 = EDGE_LOOP ( 'NONE', ( #93, #82, #2, #64 ) ) ;
#68 = CARTESIAN_POINT ( 'NONE',  ( -50.00000000000000000, 50.00000000000000000, 6.000000000000000000 ) ) ;
#69 = CARTESIAN_POINT ( 'NONE',  ( -50.00000000000000000, 0.0000000000000000000, 0.0000000000000000000 ) ) ;
#70 =( NAMED_UNIT ( * ) SI_UNIT ( $, .STERADIAN. ) SOLID_ANGLE_UNIT ( ) );
#71 = FACE_OUTER_BOUND ( 'NONE', #55, .T. ) ;
#72 = DIRECTION ( 'NONE',  ( -0.0000000000000000000, -0.0000000000000000000, -1.000000000000000000 ) ) ;
#73 =( BOUNDED_CURVE ( )  B_SPLINE_CURVE ( 3, ( #5, #14, #109, #57 ),
 .UNSPECIFIED., .F., .T. ) 
 B_SPLINE_CURVE_WITH_KNOTS ( ( 4, 4 ),
 ( 4.712388980384689674, 7.853981633974482790 ),
 .UNSPECIFIED. ) 
 CURVE ( )  GEOMETRIC_REPRESENTATION_ITEM ( )  RATIONAL_B_SPLINE_CURVE ( ( 1.000000000000000000, 0.3333333333333333703, 0.3333333333333333703, 1.000000000000000000 ) ) 
 REPRESENTATION_ITEM ( '' )  );
#74 = MECHANICAL_DESIGN_GEOMETRIC_PRESENTATION_REPRESENTATION (  '', ( #102 ), #127 ) ;
#75 = SURFACE_STYLE_FILL_AREA ( #17 ) ;
#76 = EDGE_LOOP ( 'NONE', ( #108, #115, #89, #26 ) ) ;
#77 = DIRECTION ( 'NONE',  ( 0.0000000000000000000, 0.0000000000000000000, 1.000000000000000000 ) ) ;
#78 = MANIFOLD_SOLID_BREP ( 'ÇÐ³ý-À­Éì1', #111 ) ;
#79 = FILL_AREA_STYLE ('',( #29 ) ) ;
#80 = CARTESIAN_POINT ( 'NONE',  ( 50.00000000000000000, 6.123233995736766085E-15, 4.253961525412961464 ) ) ;
#81 = VECTOR ( 'NONE', #72, 1000.000000000000000 ) ;
#82 = ORIENTED_EDGE ( 'NONE', *, *, #103, .T. ) ;
#83 = EDGE_CURVE ( 'NONE', #117, #140, #52, .T. ) ;
#84 = LINE ( 'NONE', #31, #81 ) ;
#85 = VERTEX_POINT ( 'NONE', #69 ) ;
#86 = MECHANICAL_DESIGN_GEOMETRIC_PRESENTATION_REPRESENTATION (  '', ( #15 ), #116 ) ;
#87 =( LENGTH_UNIT ( ) NAMED_UNIT ( * ) SI_UNIT ( .MILLI., .METRE. ) );
#88 = CARTESIAN_POINT ( 'NONE',  ( -50.00000000000000000, 0.0000000000000000000, 4.253961525412961464 ) ) ;
#89 = ORIENTED_EDGE ( 'NONE', *, *, #128, .T. ) ;
#90 = AXIS2_PLACEMENT_3D ( 'NONE', #1, #123, #91 ) ;
#91 = DIRECTION ( 'NONE',  ( 1.000000000000000000, 0.0000000000000000000, 0.0000000000000000000 ) ) ;
#92 = APPLICATION_PROTOCOL_DEFINITION ( 'draft international standard', 'automotive_design', 1998, #60 ) ;
#93 = ORIENTED_EDGE ( 'NONE', *, *, #105, .F. ) ;
#94 = ADVANCED_FACE ( 'NONE', ( #71 ), #98, .F. ) ;
#95 = EDGE_CURVE ( 'NONE', #117, #85, #84, .T. ) ;
#96 = ORIENTED_EDGE ( 'NONE', *, *, #128, .F. ) ;
#97 = DIRECTION ( 'NONE',  ( 1.000000000000000000, 0.0000000000000000000, 0.0000000000000000000 ) ) ;
#98 = PLANE ( 'NONE',  #130 ) ;
#99 = FILL_AREA_STYLE_COLOUR ( '', #62 ) ;
#100 = CARTESIAN_POINT ( 'NONE',  ( -50.00000000000002132, 100.0000000000000000, 7.746038474587039424 ) ) ;
#101 = AXIS2_PLACEMENT_3D ( 'NONE', #44, #51, #65 ) ;
#102 = STYLED_ITEM ( 'NONE', ( #49 ), #110 ) ;
#103 = EDGE_CURVE ( 'NONE', #140, #117, #73, .T. ) ;
#104 = FACE_OUTER_BOUND ( 'NONE', #67, .T. ) ;
#105 = EDGE_CURVE ( 'NONE', #140, #30, #18, .T. ) ;
#106 = ADVANCED_FACE ( 'NONE', ( #37 ), #137, .T. ) ;
#107 = CARTESIAN_POINT ( 'NONE',  ( 50.00000000000000000, 6.123233995736766085E-15, 0.0000000000000000000 ) ) ;
#108 = ORIENTED_EDGE ( 'NONE', *, *, #83, .T. ) ;
#109 = CARTESIAN_POINT ( 'NONE',  ( -50.00000000000000000, -100.0000000000000000, 0.7618845762388835041 ) ) ;
#110 = ADVANCED_BREP_SHAPE_REPRESENTATION ( 'GCC-411323', ( #78, #90 ), #32 ) ;
#111 = CLOSED_SHELL ( 'NONE', ( #106, #10, #63, #94 ) ) ;
#112 =( LENGTH_UNIT ( ) NAMED_UNIT ( * ) SI_UNIT ( .MILLI., .METRE. ) );
#113 = DIRECTION ( 'NONE',  ( -0.0000000000000000000, -0.0000000000000000000, -1.000000000000000000 ) ) ;
#114 = PRODUCT_DEFINITION ( 'Î´Öª', '', #134, #139 ) ;
#115 = ORIENTED_EDGE ( 'NONE', *, *, #105, .T. ) ;
#116 =( GEOMETRIC_REPRESENTATION_CONTEXT ( 3 ) GLOBAL_UNCERTAINTY_ASSIGNED_CONTEXT ( ( #118 ) ) GLOBAL_UNIT_ASSIGNED_CONTEXT ( ( #112, #21, #53 ) ) REPRESENTATION_CONTEXT ( 'NONE', 'WORKASPACE' ) );
#117 = VERTEX_POINT ( 'NONE', #34 ) ;
#118 = UNCERTAINTY_MEASURE_WITH_UNIT (LENGTH_MEASURE( 1.000000000000000082E-05 ), #112, 'distance_accuracy_value', 'NONE');
#119 = PRESENTATION_LAYER_ASSIGNMENT (  '', '', ( #102 ) ) ;
#120 = CARTESIAN_POINT ( 'NONE',  ( 0.0000000000000000000, 0.0000000000000000000, 0.0000000000000000000 ) ) ;
#121 =( NAMED_UNIT ( * ) PLANE_ANGLE_UNIT ( ) SI_UNIT ( $, .RADIAN. ) );
#122 = DIRECTION ( 'NONE',  ( 0.0000000000000000000, 0.9993908270190958731, 0.03489949670249403030 ) ) ;
#123 = DIRECTION ( 'NONE',  ( 0.0000000000000000000, 0.0000000000000000000, 1.000000000000000000 ) ) ;
#124 = SURFACE_SIDE_STYLE ('',( #75 ) ) ;
#125 = AXIS2_PLACEMENT_3D ( 'NONE', #120, #54, #132 ) ;
#126 =( LENGTH_UNIT ( ) NAMED_UNIT ( * ) SI_UNIT ( .MILLI., .METRE. ) );
#127 =( GEOMETRIC_REPRESENTATION_CONTEXT ( 3 ) GLOBAL_UNCERTAINTY_ASSIGNED_CONTEXT ( ( #4 ) ) GLOBAL_UNIT_ASSIGNED_CONTEXT ( ( #126, #36, #48 ) ) REPRESENTATION_CONTEXT ( 'NONE', 'WORKASPACE' ) );
#128 = EDGE_CURVE ( 'NONE', #30, #85, #66, .T. ) ;
#129 = UNCERTAINTY_MEASURE_WITH_UNIT (LENGTH_MEASURE( 1.000000000000000082E-05 ), #87, 'distance_accuracy_value', 'NONE');
#130 = AXIS2_PLACEMENT_3D ( 'NONE', #68, #3, #122 ) ;
#131 = DIRECTION ( 'NONE',  ( 0.0000000000000000000, 0.0000000000000000000, 1.000000000000000000 ) ) ;
#132 = DIRECTION ( 'NONE',  ( 1.000000000000000000, 0.0000000000000000000, 0.0000000000000000000 ) ) ;
#133 = CARTESIAN_POINT ( 'NONE',  ( 50.00000000000000000, 6.123233995736766085E-15, 4.253961525412961464 ) ) ;
#134 = PRODUCT_DEFINITION_FORMATION_WITH_SPECIFIED_SOURCE ( 'ÈÎºÎ', '', #46, .NOT_KNOWN. ) ;
#135 = DIRECTION ( 'NONE',  ( -1.000000000000000000, 0.0000000000000000000, 0.0000000000000000000 ) ) ;
#136 = PRODUCT_CONTEXT ( 'NONE', #61, 'mechanical' ) ;
#137 = CYLINDRICAL_SURFACE ( 'NONE', #8, 50.00000000000000000 ) ;
#138 = AXIS2_PLACEMENT_3D ( 'NONE', #40, #131, #13 ) ;
#139 = PRODUCT_DEFINITION_CONTEXT ( 'detailed design', #60, 'design' ) ;
#140 = VERTEX_POINT ( 'NONE', #133 ) ;
ENDSEC;
END-ISO-10303-21;
